ISO-10303-21;
HEADER;
FILE_DESCRIPTION (( 'STEP AP203' ),
    '1' );
FILE_NAME ('BK7-RNDF-25.4-0.1.STEP',
    '2020-12-22T01:27:44',
    ( '' ),
    ( '' ),
    'SwSTEP 2.0',
    'SolidWorks 2020',
    '' );
FILE_SCHEMA (( 'CONFIG_CONTROL_DESIGN' ));
ENDSEC;

DATA;
#1 = DIRECTION ( 'NONE',  ( 0.000000000000000000, 0.000000000000000000, 1.000000000000000000 ) ) ;
#2 = CARTESIAN_POINT ( 'NONE',  ( 0.000000000000000000, 0.000000000000000000, 0.000000000000000000 ) ) ;
#3 = DIRECTION ( 'NONE',  ( -0.000000000000000000, 0.000000000000000000, 1.000000000000000000 ) ) ;
#4 = CIRCLE ( 'NONE', #127, 12.69999999999999929 ) ;
#5 = LOCAL_TIME ( 9, 27, 44.00000000000000000, #139 ) ;
#6 = ADVANCED_FACE ( 'NONE', ( #114 ), #88, .T. ) ;
#7 = PRODUCT_DEFINITION_SHAPE ( 'NONE', 'NONE',  #100 ) ;
#8 = DIRECTION ( 'NONE',  ( 0.000000000000000000, 0.000000000000000000, 1.000000000000000000 ) ) ;
#9 = VECTOR ( 'NONE', #19, 1000.000000000000000 ) ;
#10 = CALENDAR_DATE ( 2020, 22, 12 ) ;
#11 = CARTESIAN_POINT ( 'NONE',  ( 0.000000000000000000, 0.000000000000000000, 0.000000000000000000 ) ) ;
#12 = APPROVAL_PERSON_ORGANIZATION ( #97, #91, #162 ) ;
#13 = ORIENTED_EDGE ( 'NONE', *, *, #37, .T. ) ;
#14 = DATE_AND_TIME ( #41, #47 ) ;
#15 = DIRECTION ( 'NONE',  ( 1.000000000000000000, 0.000000000000000000, 0.000000000000000000 ) ) ;
#16 = APPROVAL ( #106, 'UNSPECIFIED' ) ;
#17 = CARTESIAN_POINT ( 'NONE',  ( -1.187907395172932594E-15, 0.000000000000000000, 0.000000000000000000 ) ) ;
#18 = CARTESIAN_POINT ( 'NONE',  ( -5.939536975864662969E-16, 12.69999999999999929, 0.000000000000000000 ) ) ;
#19 = DIRECTION ( 'NONE',  ( -1.000000000000000000, -0.000000000000000000, -0.000000000000000000 ) ) ;
#20 = AXIS2_PLACEMENT_3D ( 'NONE', #11, #8, #168 ) ;
#21 = CALENDAR_DATE ( 2020, 22, 12 ) ;
#22 = APPLICATION_PROTOCOL_DEFINITION ( 'international standard', 'config_control_design', 1994, #166 ) ;
#23 = AXIS2_PLACEMENT_3D ( 'NONE', #33, #118, #87 ) ;
#24 = PERSON_AND_ORGANIZATION ( #151, #144 ) ;
#25 = APPROVAL_PERSON_ORGANIZATION ( #75, #30, #92 ) ;
#26 = CYLINDRICAL_SURFACE ( 'NONE', #80, 12.69999999999999929 ) ;
#27 = SHAPE_DEFINITION_REPRESENTATION ( #7, #160 ) ;
#28 = EDGE_LOOP ( 'NONE', ( #13, #148, #124, #96 ) ) ;
#29 = DIRECTION ( 'NONE',  ( -1.000000000000000000, -0.000000000000000000, -0.000000000000000000 ) ) ;
#30 = APPROVAL ( #145, 'UNSPECIFIED' ) ;
#31 = CARTESIAN_POINT ( 'NONE',  ( 1.999999999999998224, 1.555301434917138433E-15, -12.69999999999999929 ) ) ;
#32 = CC_DESIGN_APPROVAL ( #16, ( #171 ) ) ;
#33 = CARTESIAN_POINT ( 'NONE',  ( 1.999999999999998224, 0.000000000000000000, 0.000000000000000000 ) ) ;
#34 = CARTESIAN_POINT ( 'NONE',  ( 0.000000000000000000, 1.555301434917138433E-15, -12.69999999999999929 ) ) ;
#35 = CC_DESIGN_PERSON_AND_ORGANIZATION_ASSIGNMENT ( #51, #105, ( #171 ) ) ;
#36 = CARTESIAN_POINT ( 'NONE',  ( 0.000000000000000000, 0.000000000000000000, 0.000000000000000000 ) ) ;
#37 = EDGE_CURVE ( 'NONE', #165, #99, #56, .T. ) ;
#38 = CALENDAR_DATE ( 2020, 22, 12 ) ;
#39 = EDGE_CURVE ( 'NONE', #99, #98, #116, .T. ) ;
#40 = ORIENTED_EDGE ( 'NONE', *, *, #57, .T. ) ;
#41 = CALENDAR_DATE ( 2020, 22, 12 ) ;
#42 = CLOSED_SHELL ( 'NONE', ( #175, #6, #120, #84 ) ) ;
#43 = EDGE_LOOP ( 'NONE', ( #45, #59 ) ) ;
#44 = CC_DESIGN_PERSON_AND_ORGANIZATION_ASSIGNMENT ( #52, #67, ( #100 ) ) ;
#45 = ORIENTED_EDGE ( 'NONE', *, *, #37, .F. ) ;
#46 = CARTESIAN_POINT ( 'NONE',  ( 1.999999999999999112, 12.69999999999999929, 0.000000000000000000 ) ) ;
#47 = LOCAL_TIME ( 9, 27, 44.00000000000000000, #135 ) ;
#48 = UNCERTAINTY_MEASURE_WITH_UNIT (LENGTH_MEASURE( 1.000000000000000082E-05 ), #76, 'distance_accuracy_value', 'NONE');
#49 = DIRECTION ( 'NONE',  ( -1.000000000000000000, -0.000000000000000000, -0.000000000000000000 ) ) ;
#50 = CIRCLE ( 'NONE', #130, 12.69999999999999929 ) ;
#51 = PERSON_AND_ORGANIZATION ( #151, #144 ) ;
#52 = PERSON_AND_ORGANIZATION ( #151, #144 ) ;
#53 = FACE_OUTER_BOUND ( 'NONE', #28, .T. ) ;
#54 = DATE_AND_TIME ( #38, #121 ) ;
#55 = CARTESIAN_POINT ( 'NONE',  ( -1.187907395172932594E-15, 0.000000000000000000, 12.69999999999999929 ) ) ;
#56 = CIRCLE ( 'NONE', #23, 12.69999999999999929 ) ;
#57 = EDGE_CURVE ( 'NONE', #163, #98, #50, .T. ) ;
#58 =( GEOMETRIC_REPRESENTATION_CONTEXT ( 3 ) GLOBAL_UNCERTAINTY_ASSIGNED_CONTEXT ( ( #48 ) ) GLOBAL_UNIT_ASSIGNED_CONTEXT ( ( #76, #65, #90 ) ) REPRESENTATION_CONTEXT ( 'NONE', 'WORKASPACE' ) );
#59 = ORIENTED_EDGE ( 'NONE', *, *, #69, .F. ) ;
#60 = EDGE_CURVE ( 'NONE', #98, #163, #4, .T. ) ;
#61 = CC_DESIGN_DATE_AND_TIME_ASSIGNMENT ( #54, #167, ( #100 ) ) ;
#62 = DIRECTION ( 'NONE',  ( 0.000000000000000000, 0.000000000000000000, 1.000000000000000000 ) ) ;
#63 = FACE_OUTER_BOUND ( 'NONE', #164, .T. ) ;
#64 = DATE_AND_TIME ( #157, #128 ) ;
#65 =( NAMED_UNIT ( * ) PLANE_ANGLE_UNIT ( ) SI_UNIT ( $, .RADIAN. ) );
#66 = COORDINATED_UNIVERSAL_TIME_OFFSET ( 8, 0, .AHEAD. ) ;
#67 = PERSON_AND_ORGANIZATION_ROLE ( 'creator' ) ;
#68 = ORIENTED_EDGE ( 'NONE', *, *, #39, .F. ) ;
#69 = EDGE_CURVE ( 'NONE', #99, #165, #89, .T. ) ;
#70 = SECURITY_CLASSIFICATION ( '', '', #142 ) ;
#71 = DIRECTION ( 'NONE',  ( -1.000000000000000000, -0.000000000000000000, -0.000000000000000000 ) ) ;
#72 = DIRECTION ( 'NONE',  ( 0.000000000000000000, 0.000000000000000000, -1.000000000000000000 ) ) ;
#73 = CARTESIAN_POINT ( 'NONE',  ( 1.999999999999998224, 0.000000000000000000, 0.000000000000000000 ) ) ;
#74 = CARTESIAN_POINT ( 'NONE',  ( -1.187907395172932594E-15, 1.555301434917138433E-15, -12.69999999999999929 ) ) ;
#75 = PERSON_AND_ORGANIZATION ( #151, #144 ) ;
#76 =( LENGTH_UNIT ( ) NAMED_UNIT ( * ) SI_UNIT ( .MILLI., .METRE. ) );
#77 = DATE_AND_TIME ( #21, #5 ) ;
#78 = CC_DESIGN_SECURITY_CLASSIFICATION ( #70, ( #171 ) ) ;
#79 = PERSON_AND_ORGANIZATION_ROLE ( 'classification_officer' ) ;
#80 = AXIS2_PLACEMENT_3D ( 'NONE', #36, #169, #133 ) ;
#81 = MANIFOLD_SOLID_BREP ( 'Ðý×', #42 ) ;
#82 = AXIS2_PLACEMENT_3D ( 'NONE', #2, #137, #103 ) ;
#83 = ORIENTED_EDGE ( 'NONE', *, *, #60, .F. ) ;
#84 = ADVANCED_FACE ( 'NONE', ( #63 ), #85, .F. ) ;
#85 = PLANE ( 'NONE',  #113 ) ;
#86 = PLANE ( 'NONE',  #94 ) ;
#87 = DIRECTION ( 'NONE',  ( 0.000000000000000000, 0.000000000000000000, 1.000000000000000000 ) ) ;
#88 = CYLINDRICAL_SURFACE ( 'NONE', #82, 12.69999999999999929 ) ;
#89 = CIRCLE ( 'NONE', #143, 12.69999999999999929 ) ;
#90 =( NAMED_UNIT ( * ) SI_UNIT ( $, .STERADIAN. ) SOLID_ANGLE_UNIT ( ) );
#91 = APPROVAL ( #161, 'UNSPECIFIED' ) ;
#92 = APPROVAL_ROLE ( '' ) ;
#93 = PERSON_AND_ORGANIZATION_ROLE ( 'creator' ) ;
#94 = AXIS2_PLACEMENT_3D ( 'NONE', #46, #101, #3 ) ;
#95 = PERSON_AND_ORGANIZATION_ROLE ( 'design_owner' ) ;
#96 = ORIENTED_EDGE ( 'NONE', *, *, #150, .F. ) ;
#97 = PERSON_AND_ORGANIZATION ( #151, #144 ) ;
#98 = VERTEX_POINT ( 'NONE', #74 ) ;
#99 = VERTEX_POINT ( 'NONE', #31 ) ;
#100 = PRODUCT_DEFINITION ( 'UNKNOWN', '', #171, #155 ) ;
#101 = DIRECTION ( 'NONE',  ( -1.000000000000000000, 0.000000000000000000, -0.000000000000000000 ) ) ;
#102 = CC_DESIGN_PERSON_AND_ORGANIZATION_ASSIGNMENT ( #24, #79, ( #70 ) ) ;
#103 = DIRECTION ( 'NONE',  ( 0.000000000000000000, 0.000000000000000000, 1.000000000000000000 ) ) ;
#104 = CARTESIAN_POINT ( 'NONE',  ( -1.187907395172932594E-15, 0.000000000000000000, 0.000000000000000000 ) ) ;
#105 = PERSON_AND_ORGANIZATION_ROLE ( 'design_supplier' ) ;
#106 = APPROVAL_STATUS ( 'not_yet_approved' ) ;
#107 = APPLICATION_PROTOCOL_DEFINITION ( 'international standard', 'config_control_design', 1994, #110 ) ;
#108 = APPROVAL_DATE_TIME ( #77, #16 ) ;
#109 = PERSON_AND_ORGANIZATION ( #151, #144 ) ;
#110 = APPLICATION_CONTEXT ( 'configuration controlled 3d designs of mechanical parts and assemblies' ) ;
#111 = DATE_TIME_ROLE ( 'classification_date' ) ;
#112 = EDGE_LOOP ( 'NONE', ( #68, #138, #136, #83 ) ) ;
#113 = AXIS2_PLACEMENT_3D ( 'NONE', #18, #15, #72 ) ;
#114 = FACE_OUTER_BOUND ( 'NONE', #112, .T. ) ;
#115 = PRODUCT_RELATED_PRODUCT_CATEGORY ( 'detail', '', ( #131 ) ) ;
#116 = LINE ( 'NONE', #34, #9 ) ;
#117 = FACE_OUTER_BOUND ( 'NONE', #43, .T. ) ;
#118 = DIRECTION ( 'NONE',  ( -1.000000000000000000, -0.000000000000000000, -0.000000000000000000 ) ) ;
#119 = PERSON_AND_ORGANIZATION ( #151, #144 ) ;
#120 = ADVANCED_FACE ( 'NONE', ( #117 ), #86, .F. ) ;
#121 = LOCAL_TIME ( 9, 27, 44.00000000000000000, #66 ) ;
#122 = APPROVAL_PERSON_ORGANIZATION ( #119, #16, #172 ) ;
#123 = APPROVAL_DATE_TIME ( #14, #91 ) ;
#124 = ORIENTED_EDGE ( 'NONE', *, *, #57, .F. ) ;
#125 = CC_DESIGN_PERSON_AND_ORGANIZATION_ASSIGNMENT ( #109, #95, ( #131 ) ) ;
#126 = CARTESIAN_POINT ( 'NONE',  ( 0.000000000000000000, 0.000000000000000000, 12.69999999999999929 ) ) ;
#127 = AXIS2_PLACEMENT_3D ( 'NONE', #104, #49, #1 ) ;
#128 = LOCAL_TIME ( 9, 27, 44.00000000000000000, #129 ) ;
#129 = COORDINATED_UNIVERSAL_TIME_OFFSET ( 8, 0, .AHEAD. ) ;
#130 = AXIS2_PLACEMENT_3D ( 'NONE', #17, #71, #152 ) ;
#131 = PRODUCT ( 'BK7-RNDF-25.4-0.1', 'BK7-RNDF-25.4-0.1', '', ( #173 ) ) ;
#132 = COORDINATED_UNIVERSAL_TIME_OFFSET ( 8, 0, .AHEAD. ) ;
#133 = DIRECTION ( 'NONE',  ( 0.000000000000000000, 0.000000000000000000, 1.000000000000000000 ) ) ;
#134 = CC_DESIGN_APPROVAL ( #91, ( #70 ) ) ;
#135 = COORDINATED_UNIVERSAL_TIME_OFFSET ( 8, 0, .AHEAD. ) ;
#136 = ORIENTED_EDGE ( 'NONE', *, *, #150, .T. ) ;
#137 = DIRECTION ( 'NONE',  ( -1.000000000000000000, -0.000000000000000000, -0.000000000000000000 ) ) ;
#138 = ORIENTED_EDGE ( 'NONE', *, *, #69, .T. ) ;
#139 = COORDINATED_UNIVERSAL_TIME_OFFSET ( 8, 0, .AHEAD. ) ;
#140 = CC_DESIGN_PERSON_AND_ORGANIZATION_ASSIGNMENT ( #158, #93, ( #171 ) ) ;
#141 = APPROVAL_DATE_TIME ( #64, #30 ) ;
#142 = SECURITY_CLASSIFICATION_LEVEL ( 'unclassified' ) ;
#143 = AXIS2_PLACEMENT_3D ( 'NONE', #73, #29, #62 ) ;
#144 = ORGANIZATION ( 'UNSPECIFIED', 'UNSPECIFIED', '' ) ;
#145 = APPROVAL_STATUS ( 'not_yet_approved' ) ;
#146 = CC_DESIGN_APPROVAL ( #30, ( #100 ) ) ;
#147 = CC_DESIGN_DATE_AND_TIME_ASSIGNMENT ( #159, #111, ( #70 ) ) ;
#148 = ORIENTED_EDGE ( 'NONE', *, *, #39, .T. ) ;
#149 = VECTOR ( 'NONE', #153, 1000.000000000000000 ) ;
#150 = EDGE_CURVE ( 'NONE', #165, #163, #154, .T. ) ;
#151 = PERSON ( 'UNSPECIFIED', 'UNSPECIFIED', 'UNSPECIFIED', ('UNSPECIFIED'), ('UNSPECIFIED'), ('UNSPECIFIED') ) ;
#152 = DIRECTION ( 'NONE',  ( 0.000000000000000000, 0.000000000000000000, 1.000000000000000000 ) ) ;
#153 = DIRECTION ( 'NONE',  ( -1.000000000000000000, -0.000000000000000000, -0.000000000000000000 ) ) ;
#154 = LINE ( 'NONE', #126, #149 ) ;
#155 = DESIGN_CONTEXT ( 'detailed design', #110, 'design' ) ;
#156 = CARTESIAN_POINT ( 'NONE',  ( 1.999999999999998224, 0.000000000000000000, 12.69999999999999929 ) ) ;
#157 = CALENDAR_DATE ( 2020, 22, 12 ) ;
#158 = PERSON_AND_ORGANIZATION ( #151, #144 ) ;
#159 = DATE_AND_TIME ( #10, #170 ) ;
#160 = ADVANCED_BREP_SHAPE_REPRESENTATION ( 'BK7-RNDF-25.4-0.1', ( #81, #20 ), #58 ) ;
#161 = APPROVAL_STATUS ( 'not_yet_approved' ) ;
#162 = APPROVAL_ROLE ( '' ) ;
#163 = VERTEX_POINT ( 'NONE', #55 ) ;
#164 = EDGE_LOOP ( 'NONE', ( #40, #174 ) ) ;
#165 = VERTEX_POINT ( 'NONE', #156 ) ;
#166 = APPLICATION_CONTEXT ( 'configuration controlled 3d designs of mechanical parts and assemblies' ) ;
#167 = DATE_TIME_ROLE ( 'creation_date' ) ;
#168 = DIRECTION ( 'NONE',  ( 1.000000000000000000, 0.000000000000000000, 0.000000000000000000 ) ) ;
#169 = DIRECTION ( 'NONE',  ( -1.000000000000000000, -0.000000000000000000, -0.000000000000000000 ) ) ;
#170 = LOCAL_TIME ( 9, 27, 44.00000000000000000, #132 ) ;
#171 = PRODUCT_DEFINITION_FORMATION_WITH_SPECIFIED_SOURCE ( 'ANY', '', #131, .NOT_KNOWN. ) ;
#172 = APPROVAL_ROLE ( '' ) ;
#173 = MECHANICAL_CONTEXT ( 'NONE', #166, 'mechanical' ) ;
#174 = ORIENTED_EDGE ( 'NONE', *, *, #60, .T. ) ;
#175 = ADVANCED_FACE ( 'NONE', ( #53 ), #26, .T. ) ;
ENDSEC;
END-ISO-10303-21;
